  0
SECTION
  2
HEADER
  9
$ACADVER
  1
AC1009
  9
$INSBASE
 10
0.0
 20
0.0
 30
0.0
  9
$EXTMIN
 10
-35.008239117460562
 20
-64.666962959333432
 30
-0.0015258207003583
  9
$EXTMAX
 10
235.00824037474621
 20
336.77813363551252
 30
0.0000000349246037
  9
$LIMMIN
 10
0.0
 20
0.0
  9
$LIMMAX
 10
0.0
 20
0.0
  9
$ORTHOMODE
 70
     0
  9
$REGENMODE
 70
     1
  9
$FILLMODE
 70
     1
  9
$QTEXTMODE
 70
     0
  9
$MIRRTEXT
 70
     1
  9
$DRAGMODE
 70
     2
  9
$LTSCALE
 40
7.6199999999999983
  9
$OSMODE
 70
   231
  9
$ATTMODE
 70
     1
  9
$TEXTSIZE
 40
0.0
  9
$TRACEWID
 40
1.0
  9
$TEXTSTYLE
  7
STANDARD
  9
$CLAYER
  8
DATA
  9
$CELTYPE
  6
BYLAYER
  9
$CECOLOR
 62
   256
  9
$DIMSCALE
 40
1.0
  9
$DIMASZ
 40
0.18
  9
$DIMEXO
 40
0.0625
  9
$DIMDLI
 40
0.38
  9
$DIMRND
 40
0.0
  9
$DIMDLE
 40
0.0
  9
$DIMEXE
 40
0.18
  9
$DIMTP
 40
0.0
  9
$DIMTM
 40
0.0
  9
$DIMTXT
 40
0.18
  9
$DIMCEN
 40
0.09
  9
$DIMTSZ
 40
0.0
  9
$DIMTOL
 70
     0
  9
$DIMLIM
 70
     0
  9
$DIMTIH
 70
     1
  9
$DIMTOH
 70
     1
  9
$DIMSE1
 70
     0
  9
$DIMSE2
 70
     0
  9
$DIMTAD
 70
     0
  9
$DIMZIN
 70
     0
  9
$DIMBLK
  1

  9
$DIMASO
 70
     1
  9
$DIMSHO
 70
     1
  9
$DIMPOST
  1

  9
$DIMAPOST
  1

  9
$DIMALT
 70
     0
  9
$DIMALTD
 70
     2
  9
$DIMALTF
 40
25.399999999999999
  9
$DIMLFAC
 40
1.0
  9
$DIMTOFL
 70
     0
  9
$DIMTVP
 40
0.0
  9
$DIMTIX
 70
     0
  9
$DIMSOXD
 70
     0
  9
$DIMSAH
 70
     0
  9
$DIMBLK1
  1

  9
$DIMBLK2
  1

  9
$DIMSTYLE
  2
STANDARD
  9
$DIMCLRD
 70
     0
  9
$DIMCLRE
 70
     0
  9
$DIMCLRT
 70
     0
  9
$DIMTFAC
 40
1.0
  9
$DIMGAP
 40
0.09
  9
$LUNITS
 70
     2
  9
$LUPREC
 70
     4
  9
$SKETCHINC
 40
0.1
  9
$FILLETRAD
 40
0.0
  9
$AUNITS
 70
     0
  9
$AUPREC
 70
     0
  9
$MENU
  1
acad
  9
$ELEVATION
 40
0.0
  9
$PELEVATION
 40
0.0
  9
$THICKNESS
 40
0.0
  9
$LIMCHECK
 70
     0
  9
$BLIPMODE
 70
     0
  9
$CHAMFERA
 40
0.0
  9
$CHAMFERB
 40
0.0
  9
$SKPOLY
 70
     0
  9
$TDCREATE
 40
2455092.6638425919
  9
$TDUPDATE
 40
2455092.6787759028
  9
$TDINDWG
 40
0.0003820023
  9
$TDUSRTIMER
 40
0.0003810995
  9
$USRTIMER
 70
     1
  9
$ANGBASE
 50
0.0
  9
$ANGDIR
 70
     0
  9
$PDMODE
 70
     1
  9
$PDSIZE
 40
-2.0
  9
$PLINEWID
 40
0.0
  9
$COORDS
 70
     0
  9
$SPLFRAME
 70
     0
  9
$SPLINETYPE
 70
     6
  9
$SPLINESEGS
 70
     8
  9
$ATTDIA
 70
     0
  9
$ATTREQ
 70
     1
  9
$HANDLING
 70
     1
  9
$HANDSEED
  5
25C
  9
$SURFTAB1
 70
     6
  9
$SURFTAB2
 70
     6
  9
$SURFTYPE
 70
     6
  9
$SURFU
 70
     6
  9
$SURFV
 70
     6
  9
$UCSNAME
  2

  9
$UCSORG
 10
0.0
 20
0.0
 30
0.0
  9
$UCSXDIR
 10
1.0
 20
0.0
 30
0.0
  9
$UCSYDIR
 10
0.0
 20
1.0
 30
0.0
  9
$PUCSNAME
  2

  9
$PUCSORG
 10
0.0
 20
0.0
 30
0.0
  9
$PUCSXDIR
 10
1.0
 20
0.0
 30
0.0
  9
$PUCSYDIR
 10
0.0
 20
1.0
 30
0.0
  9
$USERI1
 70
     0
  9
$USERI2
 70
     0
  9
$USERI3
 70
     0
  9
$USERI4
 70
     0
  9
$USERI5
 70
     0
  9
$USERR1
 40
0.0
  9
$USERR2
 40
0.0
  9
$USERR3
 40
0.0
  9
$USERR4
 40
0.0
  9
$USERR5
 40
0.0
  9
$WORLDVIEW
 70
     1
  9
$SHADEDGE
 70
     3
  9
$SHADEDIF
 70
    70
  9
$TILEMODE
 70
     1
  9
$MAXACTVP
 70
    64
  9
$PLIMCHECK
 70
     0
  9
$PEXTMIN
 10
1.0000000000000000E+020
 20
1.0000000000000000E+020
 30
1.0000000000000000E+020
  9
$PEXTMAX
 10
-1.0000000000000000E+020
 20
-1.0000000000000000E+020
 30
-1.0000000000000000E+020
  9
$PLIMMIN
 10
0.0
 20
0.0
  9
$PLIMMAX
 10
12.0
 20
9.0
  9
$UNITMODE
 70
     0
  9
$VISRETAIN
 70
     0
  9
$PLINEGEN
 70
     1
  9
$PSLTSCALE
 70
     0
  0
ENDSEC
  0
SECTION
  2
TABLES
  0
TABLE
  2
VPORT
 70
     1
  0
VPORT
  2
*ACTIVE
 70
     0
 10
0.0
 20
0.0
 11
1.0
 21
1.0
 12
100.0000006286427
 22
136.05558533808949
 13
0.0
 23
0.0
 14
1.0
 24
1.0
 15
0.0
 25
0.0
 16
0.0
 26
0.0
 36
1.0
 17
0.0
 27
0.0
 37
0.0
 40
404.43723396077019
 41
1.9863184079601981
 42
50.0
 43
0.0
 44
0.0
 50
0.0
 51
0.0
 71
     0
 72
  2000
 73
     1
 74
     1
 75
     0
 76
     0
 77
     0
 78
     0
  0
ENDTAB
  0
TABLE
  2
LTYPE
 70
    11
  0
LTYPE
  2
CONTINUOUS
 70
     0
  3
Solid line
 72
    65
 73
     0
 40
0.0
  0
ENDTAB
  0
TABLE
  2
LAYER
 70
     5
  0
LAYER
  2
0
 70
     0
 62
     7
  6
CONTINUOUS
  0
LAYER
  2
DATA
 70
     0
 62
     7
  6
CONTINUOUS
  0
LAYER
  2
HIBINO-BASE
 70
     0
 62
     7
  6
CONTINUOUS
  0
LAYER
  2
SPEC
 70
     0
 62
     7
  6
CONTINUOUS
  0
LAYER
  2
DIMNSIONS
 70
     0
 62
     7
  6
CONTINUOUS
  0
ENDTAB
  0
TABLE
  2
STYLE
 70
     3
  0
STYLE
  2
STANDARD
 70
     0
 40
0.0
 41
1.0
 50
0.0
 71
     0
 42
0.0
  3
txt
  4
BIGFONT.SHX
  0
ENDTAB
  0
TABLE
  2
VIEW
 70
     0
  0
ENDTAB
  0
TABLE
  2
UCS
 70
     0
  0
ENDTAB
  0
TABLE
  2
APPID
 70
     3
  0
APPID
  2
ACAD
 70
     0
  0
APPID
  2
ACADANNOTATIVE
 70
     0
  0
APPID
  2
ACAD_MLEADERVER
 70
     0
  0
ENDTAB
  0
TABLE
  2
DIMSTYLE
 70
     2
  0
DIMSTYLE
  2
STANDARD
 70
     0
  3

  4

  5

  6

  7

 40
1.0
 41
0.18
 42
0.0625
 43
0.38
 44
0.18
 45
0.0
 46
0.0
 47
0.0
 48
0.0
140
0.18
141
0.09
142
0.0
143
25.399999999999999
144
1.0
145
0.0
146
1.0
147
0.09
 71
     0
 72
     0
 73
     1
 74
     1
 75
     0
 76
     0
 77
     0
 78
     0
170
     0
171
     2
172
     0
173
     0
174
     0
175
     0
176
     0
177
     0
178
     0
  0
ENDTAB
  0
ENDSEC
  0
SECTION
  2
BLOCKS
  0
BLOCK
  8
0
  2
$MODEL_SPACE
 70
     0
 10
0.0
 20
0.0
 30
0.0
  3
$MODEL_SPACE
  1

  0
ENDBLK
  5
1E9
  8
0
  0
BLOCK
 67
     1
  8
0
  2
$PAPER_SPACE
 70
     0
 10
0.0
 20
0.0
 30
0.0
  3
$PAPER_SPACE
  1

  0
ENDBLK
  5
1E5
 67
     1
  8
0
  0
ENDSEC
  0
SECTION
  2
ENTITIES
  0
LINE
  5
2C
  8
HIBINO-BASE
  6
CONTINUOUS
 62
     7
 10
-34.999999999999993
 20
336.76590750000008
 30
0.0
 11
235.0
 21
336.76590750000008
 31
0.0
  0
LINE
  5
2D
  8
HIBINO-BASE
  6
CONTINUOUS
 62
     7
 10
235.0
 20
-53.234092500000003
 30
0.0
 11
-34.999999999999993
 21
-53.234092500000003
 31
0.0
  0
LINE
  5
2E
  8
HIBINO-BASE
  6
CONTINUOUS
 62
     7
 10
-34.999999999999993
 20
-53.234092500000003
 30
0.0
 11
-34.999999999999993
 21
336.76590750000008
 31
0.0
  0
TEXT
  5
2F
  8
HIBINO-BASE
 62
     7
 10
-24.224
 20
-62.847109199999991
 30
0.0
 40
5.4000662695312487
  1
Hibino Corporation
 11
-24.224
 21
-57.44704293046874
 31
0.0
 73
     3
  0
LINE
  5
30
  8
HIBINO-BASE
  6
CONTINUOUS
 62
     7
 10
235.0
 20
336.76590750000008
 30
0.0
 11
235.0
 21
-53.234092500000003
 31
0.0
  0
LINE
  5
31
  8
HIBINO-BASE
  6
CONTINUOUS
 62
     7
 10
100.0
 20
-19.484092499999971
 30
0.0
 11
235.0
 21
-19.484092499999971
 31
0.0
  0
LINE
  5
32
  8
HIBINO-BASE
  6
CONTINUOUS
 62
     7
 10
100.0
 20
-53.234092500000003
 30
0.0
 11
100.0
 21
-19.484092499999971
 31
0.0
  0
TEXT
  5
33
  8
HIBINO-BASE
 62
     7
 10
101.34999999999999
 20
-23.247132499999999
 30
0.0
 40
2.4432617187500001
  1
NOTE
 11
101.34999999999999
 21
-20.803870781250001
 31
0.0
 73
     3
  0
LINE
  5
34
  8
HIBINO-BASE
  6
CONTINUOUS
 62
     7
 10
152.5
 20
-53.234092500000003
 30
0.0
 11
152.5
 21
-19.484092499999971
 31
0.0
  0
TEXT
  5
35
  8
HIBINO-BASE
 62
     7
 10
153.84999999999991
 20
-23.247132499999999
 30
0.0
 40
2.4432617187500001
  1
TITLE
 11
153.84999999999991
 21
-20.803870781250001
 31
0.0
 73
     3
  0
TEXT
  5
36
  8
HIBINO-BASE
 62
     7
 10
175.10258499999989
 20
-62.847109199999991
 30
0.0
 40
5.4000662695312487
  1
ヒビノ株式会社
 11
175.10258499999989
 21
-57.44704293046874
 31
0.0
 73
     3
  0
LINE
  5
37
  8
HIBINO-BASE
  6
CONTINUOUS
 62
     7
 10
100.0
 20
-38.234092499999967
 30
0.0
 11
235.0
 21
-38.234092499999967
 31
0.0
  0
TEXT
  5
38
  8
HIBINO-BASE
 62
     7
 10
172.59999999999991
 20
-41.912652499999979
 30
0.0
 40
2.4432617187500001
  1
DRAWN
 11
172.59999999999991
 21
-39.469390781249977
 31
0.0
 73
     3
  0
TEXT
  5
39
  8
HIBINO-BASE
 62
     7
 10
135.09999999999991
 20
-41.912652499999979
 30
0.0
 40
2.4432617187500001
  1
DATE
 11
135.09999999999991
 21
-39.469390781249977
 31
0.0
 73
     3
  0
TEXT
  5
3A
  8
HIBINO-BASE
 62
     7
 10
120.09999999999999
 20
-41.912652499999979
 30
0.0
 40
2.4432617187500001
  1
SCALE
 11
120.09999999999999
 21
-39.469390781249977
 31
0.0
 73
     3
  0
TEXT
  5
3B
  8
HIBINO-BASE
 62
     7
 10
153.84999999999991
 20
-41.912652499999979
 30
0.0
 40
2.4432617187500001
  1
DESIGN
 11
153.84999999999991
 21
-39.469390781249977
 31
0.0
 73
     3
  0
TEXT
  5
3C
  8
HIBINO-BASE
 62
     7
 10
210.09999999999999
 20
-41.912652499999979
 30
0.0
 40
2.4432617187500001
  1
DRAWING NO.
 11
210.09999999999999
 21
-39.469390781249977
 31
0.0
 73
     3
  0
TEXT
  5
3D
  8
HIBINO-BASE
 62
     7
 10
191.34999999999999
 20
-41.912652499999979
 30
0.0
 40
2.4432617187500001
  1
CHECK
 11
191.34999999999999
 21
-39.469390781249977
 31
0.0
 73
     3
  0
LINE
  5
3E
  8
HIBINO-BASE
  6
CONTINUOUS
 62
     7
 10
121.5625
 20
-51.359092500000003
 30
0.0
 11
127.1875
 21
-45.734092499999967
 31
0.0
  0
TEXT
  5
3F
  8
HIBINO-BASE
 62
     7
 10
120.625
 20
-47.397507500000003
 30
0.0
 40
2.4432617187500001
  1
1
 11
120.625
 21
-44.954245781250002
 31
0.0
 73
     3
  0
LINE
  5
40
  8
HIBINO-BASE
  6
CONTINUOUS
 62
     7
 10
118.75
 20
-53.234092500000003
 30
0.0
 11
118.75
 21
-38.234092499999967
 31
0.0
  0
LINE
  5
41
  8
HIBINO-BASE
  6
CONTINUOUS
 62
     7
 10
133.74999999999989
 20
-53.234092500000003
 30
0.0
 11
133.74999999999989
 21
-38.234092499999967
 31
0.0
  0
LINE
  5
42
  8
HIBINO-BASE
  6
CONTINUOUS
 62
     7
 10
171.24999999999989
 20
-38.234092499999967
 30
0.0
 11
171.24999999999989
 21
-53.234092500000003
 31
0.0
  0
LINE
  5
43
  8
HIBINO-BASE
  6
CONTINUOUS
 62
     7
 10
208.75
 20
-38.234092499999967
 30
0.0
 11
208.75
 21
-53.234092500000003
 31
0.0
  0
LINE
  5
44
  8
HIBINO-BASE
  6
CONTINUOUS
 62
     7
 10
190.0
 20
-53.234092500000003
 30
0.0
 11
190.0
 21
-38.234092499999967
 31
0.0
  0
TEXT
  5
45
  8
HIBINO-BASE
 62
     7
 10
135.03480999999999
 20
-48.938622500000022
 30
0.0
 40
2.4432617187500001
  1
'09.09.
 11
135.03480999999999
 21
-46.495360781250007
 31
0.0
 73
     3
  0
TEXT
  5
46
  8
HIBINO-BASE
 62
     7
 10
126.25
 20
-50.210007500000003
 30
0.0
 40
2.4432617187500001
  1
1.5
 11
126.25
 21
-47.766745781250002
 31
0.0
 73
     3
  0
TEXT
  5
47
  8
HIBINO-BASE
 62
     7
 10
173.508715016552
 20
-48.938622500000022
 30
0.0
 40
2.4432617187500001
  1
N.Sasaki
 11
173.508715016552
 21
-46.495360781250007
 31
0.0
 73
     3
  0
TEXT
  5
48
  8
HIBINO-BASE
 62
     7
 10
105.825
 20
-50.270092499999983
 30
0.0
 40
4.8865234374999993
  1
A4
 11
105.825
 21
-45.38356906249998
 31
0.0
 73
     3
  0
TEXT
  5
49
  8
HIBINO-BASE
 62
     7
 10
101.4375
 20
-42.163274999999999
 30
0.0
 40
2.4432617187500001
  1
PAPER SIZE
 11
101.4375
 21
-39.720013281249997
 31
0.0
 73
     3
  0
LINE
  5
4A
  8
SPEC
  6
CONTINUOUS
 62
     7
 10
-23.749999999999989
 20
321.76590750000003
 30
0.0
 11
197.5
 21
321.76590750000003
 31
0.0
  0
LINE
  5
4B
  8
SPEC
  6
CONTINUOUS
 62
     7
 10
-23.749999999999989
 20
316.14090750000003
 30
0.0
 11
197.5
 21
316.14090750000003
 31
0.0
  0
LINE
  5
4C
  8
SPEC
  6
CONTINUOUS
 62
     7
 10
-23.749999999999989
 20
293.64090750000003
 30
0.0
 11
197.5
 21
293.64090750000003
 31
0.0
  0
LINE
  5
4D
  8
SPEC
  6
CONTINUOUS
 62
     7
 10
-23.749999999999989
 20
299.26590750000003
 30
0.0
 11
197.5
 21
299.26590750000003
 31
0.0
  0
LINE
  5
4E
  8
SPEC
  6
CONTINUOUS
 62
     7
 10
-23.749999999999989
 20
304.89090750000003
 30
0.0
 11
197.5
 21
304.89090750000003
 31
0.0
  0
LINE
  5
4F
  8
SPEC
  6
CONTINUOUS
 62
     7
 10
-23.749999999999989
 20
288.01590750000003
 30
0.0
 11
197.5
 21
288.01590750000003
 31
0.0
  0
LINE
  5
50
  8
SPEC
  6
CONTINUOUS
 62
     7
 10
-23.749999999999989
 20
276.76590750000003
 30
0.0
 11
197.5
 21
276.76590750000003
 31
0.0
  0
LINE
  5
51
  8
SPEC
  6
CONTINUOUS
 62
     7
 10
-23.749999999999989
 20
282.39090750000003
 30
0.0
 11
197.5
 21
282.39090750000003
 31
0.0
  0
LINE
  5
52
  8
SPEC
  6
CONTINUOUS
 62
     7
 10
-23.749999999999989
 20
271.14090750000003
 30
0.0
 11
197.5
 21
271.14090750000003
 31
0.0
  0
LINE
  5
53
  8
SPEC
  6
CONTINUOUS
 62
     7
 10
-23.749999999999989
 20
310.51590750000003
 30
0.0
 11
197.5
 21
310.51590750000003
 31
0.0
  0
TEXT
  5
54
  8
SPEC
 62
     7
 10
26.378468676443269
 20
317.49359622532643
 30
0.0
 40
2.8504720052083319
  1
コンデンサー型 
 11
26.378468676443269
 21
320.34406823053467
 31
0.0
 73
     3
  0
LINE
  5
55
  8
SPEC
  6
CONTINUOUS
 62
     7
 10
-23.749999999999989
 20
321.76590750000003
 30
0.0
 11
-23.749999999999989
 21
248.62090749999999
 31
0.0
  0
TEXT
  5
56
  8
SPEC
 62
     7
 10
-21.874999999999989
 20
323.8558124999999
 30
0.0
 40
3.664892578124999
  1
仕様
 11
-21.874999999999989
 21
327.52070507812488
 31
0.0
 73
     3
  0
LINE
  5
57
  8
SPEC
  6
CONTINUOUS
 62
     7
 10
25.0
 20
321.76590750000003
 30
0.0
 11
25.0
 21
248.62090749999999
 31
0.0
  0
LINE
  5
58
  8
SPEC
  6
CONTINUOUS
 62
     7
 10
197.5
 20
321.76590750000003
 30
0.0
 11
197.5
 21
248.62090749999999
 31
0.0
  0
TEXT
  5
59
  8
SPEC
 62
     7
 10
-22.49754824984981
 20
317.42033241651637
 30
0.0
 40
2.8504720052083319
  1
形式
 11
-22.49754824984981
 21
320.27080442172479
 31
0.0
 73
     3
  0
TEXT
  5
5A
  8
SPEC
 62
     7
 10
-22.458528949909891
 20
311.87337101639628
 30
0.0
 40
2.8504720052083319
  1
指向特性
 11
-22.458528949909891
 21
314.72384302160458
 31
0.0
 73
     3
  0
TEXT
  5
5B
  8
SPEC
 62
     7
 10
26.378468676443269
 20
312.01093960754281
 30
0.0
 40
2.8504720052083319
  1
ハイパーカーディオイド
 11
26.378468676443269
 21
314.86141161275111
 31
0.0
 73
     3
  0
TEXT
  5
5C
  8
SPEC
 62
     7
 10
-22.400000000000009
 20
306.27247419109551
 30
0.0
 40
2.8504720052083319
  1
周波数特性
 11
-22.400000000000009
 21
309.12294619630387
 31
0.0
 73
     3
  0
TEXT
  5
5D
  8
SPEC
 62
     7
 10
26.179456830804639
 20
306.20990347432939
 30
0.0
 40
2.8504720052083319
  1
150Hz～15kHz
 11
26.179456830804639
 21
309.06037547953781
 31
0.0
 73
     3
  0
TEXT
  5
5E
  8
SPEC
 62
     7
 10
-22.581660270970609
 20
300.69729883948179
 30
0.0
 40
2.8504720052083319
  1
開回路感度
 11
-22.581660270970609
 21
303.54777084469009
 31
0.0
 73
     3
  0
TEXT
  5
5F
  8
SPEC
 62
     7
 10
26.42561805708576
 20
300.60792479510962
 30
0.0
 40
2.8504720052083319
  1
-37dBV  re 1V/Pa
 11
26.42561805708576
 21
303.45839680031793
 31
0.0
 73
     3
  0
TEXT
  5
60
  8
SPEC
 62
     7
 10
-22.400000000000009
 20
295.08006001374719
 30
0.0
 40
2.8504720052083319
  1
最大音圧レベル
 11
-22.400000000000009
 21
297.93053201895549
 31
0.0
 73
     3
  0
TEXT
  5
61
  8
SPEC
 62
     7
 10
26.161401069082409
 20
294.99638309758421
 30
0.0
 40
2.8504720052083319
  1
115dB SPL(THD 1%%%)
 11
26.161401069082409
 21
297.84685510279257
 31
0.0
 73
     3
  0
TEXT
  5
62
  8
SPEC
 62
     7
 10
-22.458252978935089
 20
289.2748724648917
 30
0.0
 40
2.8504720052083319
  1
等価雑音レベル
 11
-22.458252978935089
 21
292.12534447010012
 31
0.0
 73
     3
  0
TEXT
  5
63
  8
SPEC
 62
     7
 10
26.350000000000001
 20
289.3654938311463
 30
0.0
 40
2.8504720052083319
  1
32dB SPL(Aウェイト)
 11
26.350000000000001
 21
292.21596583635471
 31
0.0
 73
     3
  0
TEXT
  5
64
  8
SPEC
 62
     7
 10
-22.61325801961685
 20
283.7998163716685
 30
0.0
 40
2.8504720052083319
  1
インピーダンス
 11
-22.61325801961685
 21
286.6502883768768
 31
0.0
 73
     3
  0
TEXT
  5
65
  8
SPEC
 62
     7
 10
26.350000000000001
 20
283.79123075300072
 30
0.0
 40
2.8504720052083319
  1
200\U+03A9以下
 11
26.350000000000001
 21
286.64170275820908
 31
0.0
 73
     3
  0
TEXT
  5
66
  8
SPEC
 62
     7
 10
-22.528942216407209
 20
278.17566859948113
 30
0.0
 40
2.8504720052083319
  1
電源
 11
-22.528942216407209
 21
281.02614060468937
 31
0.0
 73
     3
  0
TEXT
  5
67
  8
SPEC
 62
     7
 10
25.90091403795336
 20
278.25459863820151
 30
0.0
 40
2.8504720052083319
  1
ファンタム DC9～52V/2mA以下
 11
25.90091403795336
 21
281.10507064340982
 31
0.0
 73
     3
  0
TEXT
  5
68
  8
SPEC
 62
     7
 10
-22.805528598890639
 20
272.57744745158863
 30
0.0
 40
2.8504720052083319
  1
コネクター
 11
-22.805528598890639
 21
275.42791945679687
 31
0.0
 73
     3
  0
TEXT
  5
69
  8
SPEC
 62
     7
 10
26.434203617883739
 20
272.68073438345721
 30
0.0
 40
2.8504720052083319
  1
XLR 3ピン オス
 11
26.434203617883739
 21
275.53120638866551
 31
0.0
 73
     3
  0
TEXT
  5
6A
  8
SPEC
 62
     7
 10
-22.5541224424401
 20
266.91465490406682
 30
0.0
 40
2.8504720052083319
  1
ケーブル長
 11
-22.5541224424401
 21
269.76512690927518
 31
0.0
 73
     3
  0
TEXT
  5
6B
  8
SPEC
 62
     7
 10
26.350000000000001
 20
266.99406843053652
 30
0.0
 40
2.8504720052083319
  1
1980mm(プリアンプ付)
 11
26.350000000000001
 21
269.84454043574488
 31
0.0
 73
     3
  0
TEXT
  5
6C
  8
SPEC
 62
     7
 10
-22.553879825488391
 20
261.35477879582947
 30
0.0
 40
2.8504720052083319
  1
寸法
 11
-22.553879825488391
 21
264.20525080103778
 31
0.0
 73
     3
  0
TEXT
  5
6D
  8
SPEC
 62
     7
 10
-22.51504680256587
 20
255.75570755242711
 30
0.0
 40
2.8504720052083319
  1
重量
 11
-22.51504680256587
 21
258.60617955763541
 31
0.0
 73
     3
  0
LINE
  5
6E
  8
SPEC
  6
CONTINUOUS
 62
     7
 10
-23.749999999999989
 20
265.51090749999997
 30
0.0
 11
197.5
 21
265.51090749999997
 31
0.0
  0
LINE
  5
6F
  8
SPEC
  6
CONTINUOUS
 62
     7
 10
-23.749999999999989
 20
259.88090749999998
 30
0.0
 11
197.5
 21
259.88090749999998
 31
0.0
  0
LINE
  5
70
  8
SPEC
  6
CONTINUOUS
 62
     7
 10
-23.749999999999989
 20
254.25090750000001
 30
0.0
 11
197.5
 21
254.25090750000001
 31
0.0
  0
LINE
  5
71
  8
SPEC
  6
CONTINUOUS
 62
     7
 10
-23.749999999999989
 20
248.62090749999999
 30
0.0
 11
197.5
 21
248.62090749999999
 31
0.0
  0
TEXT
  5
72
  8
SPEC
 62
     7
 10
26.421354166718061
 20
261.27774427278041
 30
0.0
 40
2.8504720052083319
  1
23(W)\U+00D712.5(H)\U+00D743(D)mm(突起部含まず)
 11
26.421354166718061
 21
264.12821627798883
 31
0.0
 73
     3
  0
TEXT
  5
73
  8
SPEC
 62
     7
 10
26.335899852582148
 20
255.80914605825731
 30
0.0
 40
2.8504720052083319
  1
約80g
 11
26.335899852582148
 21
258.6596180634657
 31
0.0
 73
     3
  0
TEXT
  5
74
  8
SPEC
 62
     7
 10
-22.43828856594266
 20
250.22724695797851
 30
0.0
 40
2.8504720052083319
  1
付属品
 11
-22.43828856594266
 21
253.07771896318681
 31
0.0
 73
     3
  0
TEXT
  5
75
  8
SPEC
 62
     7
 10
26.308538995940278
 20
249.9905812357313
 30
0.0
 40
2.8504720052083319
  1
粘着剤/マウンテングプレート
 11
26.308538995940278
 21
252.84105324093969
 31
0.0
 73
     3
  0
TEXT
  5
76
  8
DIMNSIONS
 62
     7
 10
69.999999999999986
 20
-34.829857500000003
 30
0.0
 40
3.664892578124999
  1
(単位：mm)
 11
69.999999999999986
 21
-31.164964921875001
 31
0.0
 73
     3
  0
LINE
  5
77
  8
DIMNSIONS
  6
CONTINUOUS
 62
     7
 10
12.49999999973063
 20
34.493639523269032
 30
0.0
 11
12.49999999973063
 21
3.25
 31
0.0
  0
LINE
  5
78
  8
DIMNSIONS
  6
CONTINUOUS
 62
     7
 10
35.497268440541312
 20
34.493639523269032
 30
0.0
 11
35.497268440541312
 21
3.25
 31
0.0
  0
LINE
  5
79
  8
DIMNSIONS
  6
CONTINUOUS
 62
     7
 10
12.49999999973063
 20
6.25
 30
0.0
 11
35.497268440541312
 21
6.25
 31
0.0
  0
LINE
  5
7A
  8
DIMNSIONS
  6
CONTINUOUS
 62
     7
 10
12.49999999973063
 20
6.25
 30
0.0
 11
16.250933837621261
 21
7.2550596927253528
 31
0.0
  0
LINE
  5
7B
  8
DIMNSIONS
  6
CONTINUOUS
 62
     7
 10
12.49999999973063
 20
6.25
 30
0.0
 11
16.250933837621261
 21
5.2449403072746463
 31
0.0
  0
LINE
  5
7C
  8
DIMNSIONS
  6
CONTINUOUS
 62
     7
 10
35.497268440541312
 20
6.25
 30
0.0
 11
31.746334602650681
 21
5.2449403072746463
 31
0.0
  0
LINE
  5
7D
  8
DIMNSIONS
  6
CONTINUOUS
 62
     7
 10
35.497268440541312
 20
6.25
 30
0.0
 11
31.746334602650681
 21
7.2550596927253528
 31
0.0
  0
TEXT
  5
7E
  8
DIMNSIONS
 62
     7
 10
22.083245865566671
 20
7.7408333333333532
 30
0.0
 40
4.072102864583333
  1
23
 11
22.083245865566671
 21
11.812936197916679
 31
0.0
 73
     3
  0
LINE
  5
7F
  8
DIMNSIONS
  6
CONTINUOUS
 62
     7
 10
205.57995792589509
 20
211.380851364108
 30
0.0
 11
209.99191848057569
 21
218.75
 31
0.0
  0
LINE
  5
80
  8
DIMNSIONS
  6
CONTINUOUS
 62
     7
 10
205.57995792589509
 20
211.380851364108
 30
0.0
 11
206.65032736501939
 21
215.11367320635591
 31
0.0
  0
LINE
  5
81
  8
DIMNSIONS
  6
CONTINUOUS
 62
     7
 10
205.57995792589509
 20
211.380851364108
 30
0.0
 11
208.37333597273511
 21
214.078385187734
 31
0.0
  0
LINE
  5
82
  8
DIMNSIONS
  6
CONTINUOUS
 62
     7
 10
209.99191848057569
 20
218.75
 30
0.0
 11
223.57525181390901
 21
218.75
 31
0.0
  0
TEXT
  5
83
  8
DIMNSIONS
 62
     7
 10
212.99191848057569
 20
220.24083333333331
 30
0.0
 40
4.072102864583333
  1
\U+03C619
 11
212.99191848057569
 21
224.3129361979166
 31
0.0
 73
     3
  0
LINE
  5
84
  8
DIMNSIONS
  6
CONTINUOUS
 62
     7
 10
18.399999999999991
 20
18.749999999718511
 30
0.0
 11
-3.0
 21
18.749999999718511
 31
0.0
  0
LINE
  5
85
  8
DIMNSIONS
  6
CONTINUOUS
 62
     7
 10
18.399999999999991
 20
61.749999999602643
 30
0.0
 11
-3.0
 21
61.749999999602643
 31
0.0
  0
LINE
  5
86
  8
DIMNSIONS
  6
CONTINUOUS
 62
     7
 10
0.0
 20
18.749999999718511
 30
0.0
 11
0.0
 21
61.749999999602643
 31
0.0
  0
LINE
  5
87
  8
DIMNSIONS
  6
CONTINUOUS
 62
     7
 10
0.0
 20
18.749999999718511
 30
0.0
 11
-1.0050596927253681
 21
22.500933837609139
 31
0.0
  0
LINE
  5
88
  8
DIMNSIONS
  6
CONTINUOUS
 62
     7
 10
0.0
 20
18.749999999718511
 30
0.0
 11
1.0050596927253681
 21
22.500933837609139
 31
0.0
  0
LINE
  5
89
  8
DIMNSIONS
  6
CONTINUOUS
 62
     7
 10
0.0
 20
61.749999999602643
 30
0.0
 11
1.0050596927253681
 21
57.999066161712008
 31
0.0
  0
LINE
  5
8A
  8
DIMNSIONS
  6
CONTINUOUS
 62
     7
 10
0.0
 20
61.749999999602643
 30
0.0
 11
-1.0050596927253681
 21
57.999066161712008
 31
0.0
  0
TEXT
  5
8B
  8
DIMNSIONS
 62
     7
 10
-1.490833333333323
 20
37.604166666327252
 30
0.0
 40
4.072102864583333
  1
43
 50
90.0
 11
-5.5629361979166561
 21
37.604166666327252
 31
0.0
 73
     3
  0
TEXT
  5
8C
  8
DIMNSIONS
 62
     7
 10
10.12535952002991
 20
128.8536082774894
 30
0.0
 40
4.072102864583333
  1
1980
 50
90.0
 11
6.0532566554465754
 21
128.8536082774894
 31
0.0
 73
     3
  0
LINE
  5
8D
  8
DIMNSIONS
  6
CONTINUOUS
 62
     7
 10
12.5
 20
61.749999999602643
 30
0.0
 11
12.5
 21
210.0
 31
0.0
  0
LINE
  5
8E
  8
DIMNSIONS
  6
CONTINUOUS
 62
     7
 10
12.5
 20
61.749999999602643
 30
0.0
 11
11.223891971046781
 21
66.512499999602625
 31
0.0
  0
LINE
  5
8F
  8
DIMNSIONS
  6
CONTINUOUS
 62
     7
 10
12.5
 20
61.749999999602643
 30
0.0
 11
13.77610802895321
 21
66.512499999602625
 31
0.0
  0
LINE
  5
90
  8
DIMNSIONS
  6
CONTINUOUS
 62
     7
 10
179.74999999983069
 20
225.0
 30
0.0
 11
27.5
 21
225.0
 31
0.0
  0
LINE
  5
91
  8
DIMNSIONS
  6
CONTINUOUS
 62
     7
 10
179.74999999983069
 20
225.0
 30
0.0
 11
174.9874999998307
 21
223.72389197104681
 31
0.0
  0
LINE
  5
92
  8
DIMNSIONS
  6
CONTINUOUS
 62
     7
 10
179.74999999983069
 20
225.0
 30
0.0
 11
174.9874999998307
 21
226.27610802895319
 31
0.0
  0
LINE
  5
93
  8
DIMNSIONS
  6
CONTINUOUS
 62
     7
 10
179.74999999983069
 20
215.73002253254239
 30
0.0
 11
179.74999999983069
 21
230.53002253254229
 31
0.0
  0
ARC
  5
94
  8
DIMNSIONS
  6
CONTINUOUS
 62
     7
 10
27.5
 20
210.0
 30
0.0
 40
15.0
 50
90.0
 51
180.0
  0
LINE
  5
95
  8
DIMNSIONS
  6
CONTINUOUS
 62
     7
 10
69.749999999830749
 20
195.06083824251209
 30
0.0
 11
69.749999999830749
 21
178.25
 31
0.0
  0
LINE
  5
96
  8
DIMNSIONS
  6
CONTINUOUS
 62
     7
 10
179.74999999983069
 20
190.73002253254239
 30
0.0
 11
179.74999999983069
 21
178.25
 31
0.0
  0
LINE
  5
97
  8
DIMNSIONS
  6
CONTINUOUS
 62
     7
 10
69.749999999830749
 20
181.25
 30
0.0
 11
179.74999999983069
 21
181.25
 31
0.0
  0
LINE
  5
98
  8
DIMNSIONS
  6
CONTINUOUS
 62
     7
 10
69.749999999830749
 20
181.25
 30
0.0
 11
73.500933837721362
 21
182.2550596927253
 31
0.0
  0
LINE
  5
99
  8
DIMNSIONS
  6
CONTINUOUS
 62
     7
 10
69.749999999830749
 20
181.25
 30
0.0
 11
73.500933837721362
 21
180.24494030727459
 31
0.0
  0
LINE
  5
9A
  8
DIMNSIONS
  6
CONTINUOUS
 62
     7
 10
179.74999999983069
 20
181.25
 30
0.0
 11
175.99906616194011
 21
180.24494030727459
 31
0.0
  0
LINE
  5
9B
  8
DIMNSIONS
  6
CONTINUOUS
 62
     7
 10
179.74999999983069
 20
181.25
 30
0.0
 11
175.99906616194011
 21
182.2550596927253
 31
0.0
  0
TEXT
  5
9C
  8
DIMNSIONS
 62
     7
 10
120.78124999983071
 20
182.7408333333332
 30
0.0
 40
4.072102864583333
  1
110
 11
120.78124999983071
 21
186.8129361979166
 31
0.0
 73
     3
  0
LINE
  5
9D
  8
DIMNSIONS
  6
CONTINUOUS
 62
     7
 10
106.2499999997934
 20
37.249999999660581
 30
0.0
 11
106.2499999997934
 21
3.25
 31
0.0
  0
LINE
  5
9E
  8
DIMNSIONS
  6
CONTINUOUS
 62
     7
 10
129.2499998675091
 20
37.242922769030393
 30
0.0
 11
129.2499998675091
 21
3.25
 31
0.0
  0
LINE
  5
9F
  8
DIMNSIONS
  6
CONTINUOUS
 62
     7
 10
106.2499999997934
 20
6.25
 30
0.0
 11
129.2499998675091
 21
6.25
 31
0.0
  0
LINE
  5
A0
  8
DIMNSIONS
  6
CONTINUOUS
 62
     7
 10
106.2499999997934
 20
6.25
 30
0.0
 11
110.000933837684
 21
7.2550596927253528
 31
0.0
  0
LINE
  5
A1
  8
DIMNSIONS
  6
CONTINUOUS
 62
     7
 10
106.2499999997934
 20
6.25
 30
0.0
 11
110.000933837684
 21
5.2449403072746463
 31
0.0
  0
LINE
  5
A2
  8
DIMNSIONS
  6
CONTINUOUS
 62
     7
 10
129.2499998675091
 20
6.25
 30
0.0
 11
125.4990660296185
 21
5.2449403072746463
 31
0.0
  0
LINE
  5
A3
  8
DIMNSIONS
  6
CONTINUOUS
 62
     7
 10
129.2499998675091
 20
6.25
 30
0.0
 11
125.4990660296185
 21
7.2550596927253528
 31
0.0
  0
TEXT
  5
A4
  8
DIMNSIONS
 62
     7
 10
115.1041666003179
 20
7.7408333333333532
 30
0.0
 40
4.072102864583333
  1
23
 11
115.1041666003179
 21
11.812936197916679
 31
0.0
 73
     3
  0
LINE
  5
A5
  8
DIMNSIONS
  6
CONTINUOUS
 62
     7
 10
114.7499999997933
 20
18.749999999718579
 30
0.0
 11
90.750000000000014
 21
18.749999999718579
 31
0.0
  0
LINE
  5
A6
  8
DIMNSIONS
  6
CONTINUOUS
 62
     7
 10
108.28
 20
60.749999999718511
 30
0.0
 11
90.750000000000014
 21
60.749999999718511
 31
0.0
  0
LINE
  5
A7
  8
DIMNSIONS
  6
CONTINUOUS
 62
     7
 10
93.75
 20
18.749999999718579
 30
0.0
 11
93.75
 21
60.749999999718511
 31
0.0
  0
LINE
  5
A8
  8
DIMNSIONS
  6
CONTINUOUS
 62
     7
 10
93.75
 20
18.749999999718579
 30
0.0
 11
92.744940307274646
 21
22.50093383760921
 31
0.0
  0
LINE
  5
A9
  8
DIMNSIONS
  6
CONTINUOUS
 62
     7
 10
93.75
 20
18.749999999718579
 30
0.0
 11
94.755059692725368
 21
22.50093383760921
 31
0.0
  0
LINE
  5
AA
  8
DIMNSIONS
  6
CONTINUOUS
 62
     7
 10
93.75
 20
60.749999999718511
 30
0.0
 11
94.755059692725368
 21
56.999066161827891
 31
0.0
  0
LINE
  5
AB
  8
DIMNSIONS
  6
CONTINUOUS
 62
     7
 10
93.75
 20
60.749999999718511
 30
0.0
 11
92.744940307274646
 21
56.999066161827891
 31
0.0
  0
TEXT
  5
AC
  8
DIMNSIONS
 62
     7
 10
92.259166666666644
 20
37.104166666385211
 30
0.0
 40
4.072102864583333
  1
42
 50
90.0
 11
88.187063802083316
 21
37.104166666385211
 31
0.0
 73
     3
  0
LINE
  5
AD
  8
DIMNSIONS
  6
CONTINUOUS
 62
     7
 10
62.50000000004885
 20
15.74999999971851
 30
0.0
 11
62.50000000004885
 21
3.25
 31
0.0
  0
LINE
  5
AE
  8
DIMNSIONS
  6
CONTINUOUS
 62
     7
 10
50.0000000000488
 20
30.65863952326902
 30
0.0
 11
50.0000000000488
 21
3.25
 31
0.0
  0
LINE
  5
AF
  8
DIMNSIONS
  6
CONTINUOUS
 62
     7
 10
62.50000000004885
 20
6.25
 30
0.0
 11
79.333333333333329
 21
6.25
 31
0.0
  0
LINE
  5
B0
  8
DIMNSIONS
  6
CONTINUOUS
 62
     7
 10
62.50000000004885
 20
6.25
 30
0.0
 11
50.0000000000488
 21
6.25
 31
0.0
  0
LINE
  5
B1
  8
DIMNSIONS
  6
CONTINUOUS
 62
     7
 10
62.50000000004885
 20
6.25
 30
0.0
 11
58.749066162158222
 21
5.2449403072746463
 31
0.0
  0
LINE
  5
B2
  8
DIMNSIONS
  6
CONTINUOUS
 62
     7
 10
62.50000000004885
 20
6.25
 30
0.0
 11
58.749066162158222
 21
7.2550596927253528
 31
0.0
  0
LINE
  5
B3
  8
DIMNSIONS
  6
CONTINUOUS
 62
     7
 10
50.0000000000488
 20
6.25
 30
0.0
 11
53.750933837939428
 21
7.2550596927253528
 31
0.0
  0
LINE
  5
B4
  8
DIMNSIONS
  6
CONTINUOUS
 62
     7
 10
50.0000000000488
 20
6.25
 30
0.0
 11
53.750933837939428
 21
5.2449403072746463
 31
0.0
  0
TEXT
  5
B5
  8
DIMNSIONS
 62
     7
 10
68.75
 20
7.7408333333333532
 30
0.0
 40
4.072102864583333
  1
12.5
 11
68.75
 21
11.812936197916679
 31
0.0
 73
     3
  0
TEXT
  5
B6
  8
DATA
 62
     7
 10
175.0
 20
-36.537757499999991
 30
0.0
 40
3.664892578124999
  1
C 400 BL
 11
175.0
 21
-32.872864921874999
 31
0.0
 73
     3
  0
TEXT
  5
B7
  8
DATA
 62
     7
 10
175.0
 20
-25.662757499999991
 30
0.0
 40
3.664892578124999
  1
AKG
 11
175.0
 21
-21.997864921874989
 31
0.0
 73
     3
  0
TEXT
  5
B8
  8
DATA
 62
     7
 10
171.24999999999989
 20
-30.807967776809122
 30
0.0
 40
2.4432655664062488
  1
超小型バウンダリー・マイクロホン
 11
171.24999999999989
 21
-28.364702210402871
 31
0.0
 73
     3
  0
TEXT
  5
B9
  8
DATA
 62
     7
 10
-19.999999999999979
 20
-46.87709250000001
 30
0.0
 40
2.4432617187500001
  1
仕様および外観は予告なく変更されることがありますので、ご了承ください。
 11
-19.999999999999979
 21
-44.433830781250009
 31
0.0
 73
     3
  0
LINE
  5
BA
  8
DATA
  6
CONTINUOUS
 62
     7
 10
83.800147684480493
 20
210.77627108341969
 30
0.0
 11
83.800147684480493
 21
195.6837739816649
 31
0.0
  0
LINE
  5
BB
  8
DATA
  6
CONTINUOUS
 62
     7
 10
179.74999999983069
 20
212.73002253254239
 30
0.0
 11
179.74999999983069
 21
193.73002253254239
 31
0.0
  0
LINE
  5
BC
  8
DATA
  6
CONTINUOUS
 62
     7
 10
84.612647684480493
 20
203.73002253254239
 30
0.0
 11
97.300147684480521
 21
203.73002253254239
 31
0.0
  0
LINE
  5
BD
  8
DATA
  6
CONTINUOUS
 62
     7
 10
84.612647684480493
 20
202.73002253254239
 30
0.0
 11
97.300147684480521
 21
202.73002253254239
 31
0.0
  0
ARC
  5
BE
  8
DATA
  6
CONTINUOUS
 62
     7
 10
84.612647684480493
 20
203.23002253254239
 30
0.0
 40
0.5
 50
90.0
 51
270.0
  0
LINE
  5
BF
  8
DATA
  6
CONTINUOUS
 62
     7
 10
84.062384652872794
 20
209.55335174739469
 30
0.0
 11
97.300147684480521
 21
210.71150594310291
 31
0.0
  0
LINE
  5
C0
  8
DATA
  6
CONTINUOUS
 62
     7
 10
84.516904130544845
 20
210.09502696781439
 30
0.0
 11
97.300147684480521
 21
211.21341586187461
 31
0.0
  0
ARC
  5
C1
  8
DATA
  6
CONTINUOUS
 62
     7
 10
84.560482001918643
 20
209.59692961876851
 30
0.0
 40
0.500000000000005
 50
94.999999999999758
 51
184.9999999999998
  0
LINE
  5
C2
  8
DATA
  6
CONTINUOUS
 62
     7
 10
119.74999999983049
 20
212.73002253254239
 30
0.0
 11
119.74999999983049
 21
193.73002253254239
 31
0.0
  0
LINE
  5
C3
  8
DATA
  6
CONTINUOUS
 62
     7
 10
69.749999999830749
 20
208.39920682257249
 30
0.0
 11
83.800147684480493
 21
210.77627108341969
 31
0.0
  0
LINE
  5
C4
  8
DATA
  6
CONTINUOUS
 62
     7
 10
83.800147684480493
 20
210.77627108341969
 30
0.0
 11
108.74999999983049
 21
212.48002253254239
 31
0.0
  0
LINE
  5
C5
  8
DATA
  6
CONTINUOUS
 62
     7
 10
69.749999999830749
 20
198.06083824251209
 30
0.0
 11
83.800147684480493
 21
195.6837739816649
 31
0.0
  0
LINE
  5
C6
  8
DATA
  6
CONTINUOUS
 62
     7
 10
108.74999999983049
 20
193.98002253254239
 30
0.0
 11
83.800147684480493
 21
195.6837739816649
 31
0.0
  0
LINE
  5
C7
  8
DATA
  6
CONTINUOUS
 62
     7
 10
84.062384652872794
 20
196.90669331769001
 30
0.0
 11
97.300147684480521
 21
195.74853912198171
 31
0.0
  0
LINE
  5
C8
  8
DATA
  6
CONTINUOUS
 62
     7
 10
84.516904130544845
 20
196.36501809727019
 30
0.0
 11
97.300147684480521
 21
195.24662920321001
 31
0.0
  0
ARC
  5
C9
  8
DATA
  6
CONTINUOUS
 62
     7
 10
84.560482001918643
 20
196.8631154463161
 30
0.0
 40
0.4999999999999981
 50
175.00000000000011
 51
265.00000000000028
  0
LINE
  5
CA
  8
DATA
  6
CONTINUOUS
 62
     7
 10
97.300147684480521
 20
211.698146061774
 30
0.0
 11
97.300147684480521
 21
194.7618990033107
 31
0.0
  0
LINE
  5
CB
  8
DATA
  6
CONTINUOUS
 62
     7
 10
84.594830978948352
 20
207.09005127821121
 30
0.0
 11
97.264943201147034
 21
207.7540637230436
 31
0.0
  0
LINE
  5
CC
  8
DATA
  6
CONTINUOUS
 62
     7
 10
84.647166935191265
 20
206.09142174345661
 30
0.0
 11
97.317279157389947
 21
206.75543418828889
 31
0.0
  0
ARC
  5
CD
  8
DATA
  6
CONTINUOUS
 62
     7
 10
84.620998957069801
 20
206.59073651083389
 30
0.0
 40
0.4999999999999981
 50
92.999999999999105
 51
273.00000000000068
  0
LINE
  5
CE
  8
DATA
  6
CONTINUOUS
 62
     7
 10
84.594830978948352
 20
199.36999378687341
 30
0.0
 11
97.264943201147034
 21
198.7059813420411
 31
0.0
  0
LINE
  5
CF
  8
DATA
  6
CONTINUOUS
 62
     7
 10
84.647166935191265
 20
200.36862332162801
 30
0.0
 11
97.317279157389947
 21
199.7046108767957
 31
0.0
  0
ARC
  5
D0
  8
DATA
  6
CONTINUOUS
 62
     7
 10
84.620998957069801
 20
199.86930855425069
 30
0.0
 40
0.4999999999999988
 50
86.999999999999304
 51
267.0000000000008
  0
LINE
  5
D1
  8
DATA
  6
CONTINUOUS
 62
     7
 10
98.349999999830573
 20
194.69020770105229
 30
0.0
 11
98.349999999830573
 21
211.76983736403241
 31
0.0
  0
LINE
  5
D2
  8
DATA
  6
CONTINUOUS
 62
     7
 10
100.3499999998305
 20
194.553633630185
 30
0.0
 11
100.3499999998305
 21
211.9064114348997
 31
0.0
  0
LINE
  5
D3
  8
DATA
  6
CONTINUOUS
 62
     7
 10
102.3499999998305
 20
194.41705955931769
 30
0.0
 11
102.3499999998305
 21
212.04298550576701
 31
0.0
  0
LINE
  5
D4
  8
DATA
  6
CONTINUOUS
 62
     7
 10
104.3499999998305
 20
194.28048548845041
 30
0.0
 11
104.3499999998305
 21
212.17955957663429
 31
0.0
  0
LINE
  5
D5
  8
DATA
  6
CONTINUOUS
 62
     7
 10
106.3499999998305
 20
194.1439114175831
 30
0.0
 11
106.3499999998305
 21
212.3161336475016
 31
0.0
  0
LINE
  5
D6
  8
DATA
  6
CONTINUOUS
 62
     7
 10
108.3499999998305
 20
194.0073373467157
 30
0.0
 11
108.3499999998305
 21
212.45270771836891
 31
0.0
  0
LINE
  5
D7
  8
DATA
  6
CONTINUOUS
 62
     7
 10
110.3499999998305
 20
193.9436588961787
 30
0.0
 11
110.3499999998305
 21
212.516386168906
 31
0.0
  0
LINE
  5
D8
  8
DATA
  6
CONTINUOUS
 62
     7
 10
112.3499999998305
 20
193.89820435072409
 30
0.0
 11
112.3499999998305
 21
212.5618407143605
 31
0.0
  0
LINE
  5
D9
  8
DATA
  6
CONTINUOUS
 62
     7
 10
114.3499999998305
 20
193.85274980526961
 30
0.0
 11
114.3499999998305
 21
212.607295259815
 31
0.0
  0
LINE
  5
DA
  8
DATA
  6
CONTINUOUS
 62
     7
 10
116.3499999998306
 20
193.80729525981499
 30
0.0
 11
116.3499999998306
 21
212.65274980526959
 31
0.0
  0
LINE
  5
DB
  8
DATA
  6
CONTINUOUS
 62
     7
 10
118.3499999998306
 20
193.7618407143604
 30
0.0
 11
118.3499999998306
 21
212.69820435072421
 31
0.0
  0
CIRCLE
  5
DC
  8
DATA
  6
CONTINUOUS
 62
     7
 10
162.74999999983069
 20
203.23002253254239
 30
0.0
 40
2.4000000000000048
  0
LINE
  5
DD
  8
DATA
  6
CONTINUOUS
 62
     7
 10
161.893650220788
 20
202.37367275349959
 30
0.0
 11
163.60634977887349
 21
204.08637231158511
 31
0.0
  0
LINE
  5
DE
  8
DATA
  6
CONTINUOUS
 62
     7
 10
163.60634977887349
 20
202.37367275349959
 30
0.0
 11
161.893650220788
 21
204.08637231158511
 31
0.0
  0
LINE
  5
DF
  8
DATA
  6
CONTINUOUS
 62
     7
 10
178.1499999998307
 20
206.23002253254239
 30
0.0
 11
178.1499999998307
 21
200.23002253254239
 31
0.0
  0
LINE
  5
E0
  8
DATA
  6
CONTINUOUS
 62
     7
 10
176.24999999983069
 20
206.23002253254239
 30
0.0
 11
176.24999999983069
 21
200.23002253254239
 31
0.0
  0
LINE
  5
E1
  8
DATA
  6
CONTINUOUS
 62
     7
 10
176.24999999983069
 20
206.23002253254239
 30
0.0
 11
178.1499999998307
 21
206.23002253254239
 31
0.0
  0
LINE
  5
E2
  8
DATA
  6
CONTINUOUS
 62
     7
 10
176.24999999983069
 20
200.23002253254239
 30
0.0
 11
178.1499999998307
 21
200.23002253254239
 31
0.0
  0
ARC
  5
E3
  8
DATA
  6
CONTINUOUS
 62
     7
 10
171.5029266953494
 20
203.23002253254239
 30
0.0
 40
3.0
 50
90.0
 51
270.0
  0
LINE
  5
E4
  8
DATA
  6
CONTINUOUS
 62
     7
 10
171.5029266953494
 20
206.23002253254239
 30
0.0
 11
176.24999999983069
 21
206.23002253254239
 31
0.0
  0
LINE
  5
E5
  8
DATA
  6
CONTINUOUS
 62
     7
 10
171.5029266953494
 20
200.23002253254239
 30
0.0
 11
176.24999999983069
 21
200.23002253254239
 31
0.0
  0
LINE
  5
E6
  8
DATA
  6
CONTINUOUS
 62
     7
 10
170.69999999983071
 20
201.08002253254239
 30
0.0
 11
174.99999999983069
 21
203.23002253254239
 31
0.0
  0
LINE
  5
E7
  8
DATA
  6
CONTINUOUS
 62
     7
 10
174.99999999983069
 20
203.23002253254239
 30
0.0
 11
170.69999999983071
 21
205.3800225325424
 31
0.0
  0
LINE
  5
E8
  8
DATA
  6
CONTINUOUS
 62
     7
 10
170.69999999983071
 20
201.08002253254239
 30
0.0
 11
170.69999999983071
 21
205.3800225325424
 31
0.0
  0
ARC
  5
E9
  8
DATA
  6
CONTINUOUS
 62
     7
 10
23.998754052293361
 20
34.102215278218523
 30
0.0
 40
27.699999999999989
 50
71.84095561408607
 51
86.481441382264975
  0
ARC
  5
EA
  8
DATA
  6
CONTINUOUS
 62
     7
 10
23.998754052293361
 20
34.102215278218523
 30
0.0
 40
27.70000000000001
 50
93.518558617734755
 51
108.1577137180639
  0
ARC
  5
EB
  8
DATA
  6
CONTINUOUS
 62
     7
 10
23.998754052293361
 20
46.449999999718571
 30
0.0
 40
27.700000000000049
 50
251.8149843833566
 51
288.15904438591411
  0
ARC
  5
EC
  8
DATA
  6
CONTINUOUS
 62
     7
 10
-153.8179386576804
 20
40.249999999718533
 30
0.0
 40
189.31669270997361
 50
354.68158187267568
 51
5.2955458307633307
  0
ARC
  5
ED
  8
DATA
  6
CONTINUOUS
 62
     7
 10
31.696652039512468
 20
57.572033483274353
 30
0.0
 40
2.999999999999948
 50
5.3184181273242572
 51
71.840955614085942
  0
ARC
  5
EE
  8
DATA
  6
CONTINUOUS
 62
     7
 10
202.95429094906791
 20
40.191395748914211
 30
0.0
 40
190.4555459132047
 50
174.72212947518381
 51
185.26695433777039
  0
ARC
  5
EF
  8
DATA
  6
CONTINUOUS
 62
     7
 10
16.3014011427701
 20
57.572212257047738
 30
0.0
 40
2.9999999999999538
 50
108.1577137180642
 51
174.69594122857691
  0
ARC
  5
F0
  8
DATA
  6
CONTINUOUS
 62
     7
 10
31.6966520395125
 20
22.980181794662741
 30
0.0
 40
2.999999999999996
 50
288.15904438591372
 51
354.68158187267602
  0
ARC
  5
F1
  8
DATA
  6
CONTINUOUS
 62
     7
 10
16.290218375230619
 20
22.983673535709531
 30
0.0
 40
2.9999999999999818
 50
185.2669543377707
 51
251.81498438335649
  0
ARC
  5
F2
  8
DATA
  6
CONTINUOUS
 62
     7
 10
23.998754052293361
 20
61.803042581471672
 30
0.0
 40
1.7008273032531249
 50
181.7871355428581
 51
358.21286445714179
  0
LINE
  5
F3
  8
DATA
  6
CONTINUOUS
 62
     7
 10
28.89875405229332
 20
47.849999999718563
 30
0.0
 11
28.89875405229332
 21
45.849999999718548
 31
0.0
  0
LINE
  5
F4
  8
DATA
  6
CONTINUOUS
 62
     7
 10
19.098754052293408
 20
47.849999999718563
 30
0.0
 11
19.098754052293408
 21
45.849999999718548
 31
0.0
  0
ARC
  5
F5
  8
DATA
  6
CONTINUOUS
 62
     7
 10
23.998754052293361
 20
34.961111110829727
 30
0.0
 40
13.78888888888881
 50
69.184577375019984
 51
110.81542262498
  0
ARC
  5
F6
  8
DATA
  6
CONTINUOUS
 62
     7
 10
23.998754052293361
 20
32.961111110829727
 30
0.0
 40
13.78888888888881
 50
69.184577375019984
 51
110.81542262498
  0
TEXT
  5
F7
  8
DATA
 62
     7
 10
28.026531830071139
 20
55.873770833774152
 30
0.0
 40
2.1717881944444439
  1
C400BL
 50
180.0
 11
28.026531830071139
 21
53.701982639329692
 31
0.0
 73
     3
  0
ARC
  5
F8
  8
DATA
  6
CONTINUOUS
 62
     7
 10
23.998754052293361
 20
39.62222222194093
 30
0.0
 40
17.872222222222408
 50
252.9280651938609
 51
287.0719348061391
  0
ARC
  5
F9
  8
DATA
  6
CONTINUOUS
 62
     7
 10
23.998754052293361
 20
48.622222221940959
 30
0.0
 40
17.872222222222391
 50
252.34907991455091
 51
287.65092008544951
  0
ARC
  5
FA
  8
DATA
  6
CONTINUOUS
 62
     7
 10
29.09875405229333
 20
23.01547344506475
 30
0.0
 40
0.4999999999999944
 50
287.07193480613518
 51
0.0
  0
ARC
  5
FB
  8
DATA
  6
CONTINUOUS
 62
     7
 10
18.898754052293452
 20
23.015473445064771
 30
0.0
 40
0.5000000000000285
 50
180.0
 51
252.9280651938596
  0
ARC
  5
FC
  8
DATA
  6
CONTINUOUS
 62
     7
 10
23.998754052293361
 20
41.622222221940937
 30
0.0
 40
17.872222222222408
 50
252.9280651938609
 51
267.09566139732033
  0
ARC
  5
FD
  8
DATA
  6
CONTINUOUS
 62
     7
 10
23.998754052293361
 20
41.622222221940937
 30
0.0
 40
17.87222222222244
 50
272.9043386026799
 51
287.07193480613932
  0
ARC
  5
FE
  8
DATA
  6
CONTINUOUS
 62
     7
 10
29.09875405229333
 20
25.01547344506475
 30
0.0
 40
0.4999999999999807
 50
287.07193480613569
 51
337.47752764464201
  0
ARC
  5
FF
  8
DATA
  6
CONTINUOUS
 62
     7
 10
18.898754052293452
 20
25.015473445064771
 30
0.0
 40
0.5000000000000308
 50
202.52247235522981
 51
252.928065193859
  0
ARC
  5
100
  8
DATA
  6
CONTINUOUS
 62
     7
 10
23.998754052293361
 20
44.622222221940952
 30
0.0
 40
17.872222222222401
 50
252.9280651938609
 51
267.30963433455298
  0
ARC
  5
101
  8
DATA
  6
CONTINUOUS
 62
     7
 10
23.998754052293361
 20
44.622222221940952
 30
0.0
 40
17.87222222222243
 50
272.69036566544702
 51
287.07193480613921
  0
ARC
  5
102
  8
DATA
  6
CONTINUOUS
 62
     7
 10
29.09875405229333
 20
28.01547344506475
 30
0.0
 40
0.4999999999999671
 50
287.07193480613608
 51
323.2959618909108
  0
ARC
  5
103
  8
DATA
  6
CONTINUOUS
 62
     7
 10
18.898754052293452
 20
28.015473445064771
 30
0.0
 40
0.5000000000000076
 50
216.70403810914661
 51
252.9280651938586
  0
LINE
  5
104
  8
DATA
  6
CONTINUOUS
 62
     7
 10
24.748754052293371
 20
30.765743645231002
 30
0.0
 11
24.94875405229336
 21
21.775266538673801
 31
0.0
  0
LINE
  5
105
  8
DATA
  6
CONTINUOUS
 62
     7
 10
23.248754052293361
 20
30.765743645231002
 30
0.0
 11
23.048754052293379
 21
21.775266538673801
 31
0.0
  0
LINE
  5
106
  8
DATA
  6
CONTINUOUS
 62
     7
 10
29.598754052293309
 20
23.01547344506475
 30
0.0
 11
29.417913760501641
 21
31.591396193311802
 31
0.0
  0
LINE
  5
107
  8
DATA
  6
CONTINUOUS
 62
     7
 10
18.39875405229342
 20
23.01547344506475
 30
0.0
 11
18.579594344085091
 21
31.591396193311802
 31
0.0
  0
ARC
  5
108
  8
DATA
  6
CONTINUOUS
 62
     7
 10
26.93241586509177
 20
155.8499854516883
 30
0.0
 40
4.419417382415836
 50
225.00000000000011
 51
315.00000000000063
  0
ARC
  5
109
  8
DATA
  6
CONTINUOUS
 62
     7
 10
20.682415865091951
 20
149.5999854516885
 30
0.0
 40
4.4194173824158414
 50
45.00000000000103
 51
135.00027502018091
  0
ARC
  5
10A
  8
DATA
  6
CONTINUOUS
 62
     7
 10
26.93241586509177
 20
158.50713882863661
 30
0.0
 40
4.4194173824158689
 50
225.0000000000006
 51
315.00000000000011
  0
ARC
  5
10B
  8
DATA
  6
CONTINUOUS
 62
     7
 10
20.68241586509194
 20
152.25712882863661
 30
0.0
 40
4.4194244534892873
 50
45.000091673101032
 51
135.0000916731
  0
LINE
  5
10C
  8
DATA
  6
CONTINUOUS
 62
     7
 10
179.74999999983069
 20
212.73002253254239
 30
0.0
 11
119.74999999983049
 21
212.73002253254239
 31
0.0
  0
LINE
  5
10D
  8
DATA
  6
CONTINUOUS
 62
     7
 10
179.74999999983069
 20
193.73002253254239
 30
0.0
 11
119.74999999983049
 21
193.73002253254239
 31
0.0
  0
LINE
  5
10E
  8
DATA
  6
CONTINUOUS
 62
     7
 10
108.74999999983049
 20
212.48002253254239
 30
0.0
 11
119.74999999983049
 21
212.73002253254239
 31
0.0
  0
LINE
  5
10F
  8
DATA
  6
CONTINUOUS
 62
     7
 10
119.74999999983049
 20
193.73002253254239
 30
0.0
 11
108.74999999983049
 21
193.98002253254239
 31
0.0
  0
LINE
  5
110
  8
DATA
  6
CONTINUOUS
 62
     7
 10
34.68373690022274
 20
57.850105479194838
 30
0.0
 11
34.690726943460213
 21
57.722639523268967
 31
0.0
  0
LINE
  5
111
  8
DATA
  6
CONTINUOUS
 62
     7
 10
13.314246686010719
 20
57.849535626893349
 30
0.0
 11
13.306219335693569
 21
57.710639523268981
 31
0.0
  0
ARC
  5
112
  8
DATA
  6
CONTINUOUS
 62
     7
 10
32.798754052350489
 20
194.48002253254239
 30
0.0
 40
10.0
 50
90.0
 51
180.0
  0
ARC
  5
113
  8
DATA
  6
CONTINUOUS
 62
     7
 10
35.19875405235048
 20
191.98002253254239
 30
0.0
 40
10.0
 50
90.0
 51
180.0
  0
LINE
  5
114
  8
DATA
  6
CONTINUOUS
 62
     7
 10
25.19875405235048
 20
191.98002253254239
 30
0.0
 11
25.19875405235048
 21
157.19999999999999
 31
0.0
  0
LINE
  5
115
  8
DATA
  6
CONTINUOUS
 62
     7
 10
22.798754052350489
 20
194.48002253254239
 30
0.0
 11
22.798754052350489
 21
157.19999999999999
 31
0.0
  0
LINE
  5
116
  8
DATA
  6
CONTINUOUS
 62
     7
 10
25.19875405235048
 20
60.597715441084389
 30
0.0
 11
25.19875405235048
 21
149.59999999999999
 31
0.0
  0
LINE
  5
117
  8
DATA
  6
CONTINUOUS
 62
     7
 10
22.798754052350489
 20
60.597715440970852
 30
0.0
 11
22.798754052350489
 21
149.59999999999999
 31
0.0
  0
CIRCLE
  5
118
  8
DATA
  6
CONTINUOUS
 62
     7
 10
200.69999999999999
 20
203.23002253254239
 30
0.0
 40
9.5
  0
LINE
  5
119
  8
DATA
  6
CONTINUOUS
 62
     7
 10
32.798754052350489
 20
204.48002253254239
 30
0.0
 11
69.749999999830749
 21
204.48002253254239
 31
0.0
  0
LINE
  5
11A
  8
DATA
  6
CONTINUOUS
 62
     7
 10
35.19875405235048
 20
201.98002253254239
 30
0.0
 11
69.749999999830749
 21
201.98002253254239
 31
0.0
  0
CIRCLE
  5
11B
  8
DATA
  6
CONTINUOUS
 62
     7
 10
200.69999999999999
 20
203.23002253254239
 30
0.0
 40
8.1500000000000057
  0
CIRCLE
  5
11C
  8
DATA
  6
CONTINUOUS
 62
     7
 10
200.69999999999999
 20
199.23002253254239
 30
0.0
 40
1.150000000000005
  0
CIRCLE
  5
11D
  8
DATA
  6
CONTINUOUS
 62
     7
 10
196.69999999999999
 20
203.23002253254239
 30
0.0
 40
1.150000000000005
  0
CIRCLE
  5
11E
  8
DATA
  6
CONTINUOUS
 62
     7
 10
204.69999999999999
 20
203.23002253254239
 30
0.0
 40
1.150000000000005
  0
ARC
  5
11F
  8
DATA
  6
CONTINUOUS
 62
     7
 10
117.7499999997933
 20
34.102215278218523
 30
0.0
 40
27.699999999999989
 50
71.84095561408607
 51
72.4866583887639
  0
ARC
  5
120
  8
DATA
  6
CONTINUOUS
 62
     7
 10
117.7499999997933
 20
34.102215278218523
 30
0.0
 40
27.70000000000001
 50
107.5133416112367
 51
108.157713718064
  0
ARC
  5
121
  8
DATA
  6
CONTINUOUS
 62
     7
 10
117.7499999997933
 20
46.449999999718571
 30
0.0
 40
27.700000000000049
 50
251.8149843833566
 51
288.15904438591389
  0
ARC
  5
122
  8
DATA
  6
CONTINUOUS
 62
     7
 10
-60.066692710180362
 20
40.249999999718533
 30
0.0
 40
189.31669270997361
 50
354.68158187267568
 51
5.2955458307633307
  0
ARC
  5
123
  8
DATA
  6
CONTINUOUS
 62
     7
 10
125.4478979870125
 20
57.572033483274353
 30
0.0
 40
2.999999999999948
 50
5.3184181273242572
 51
71.840955614085942
  0
ARC
  5
124
  8
DATA
  6
CONTINUOUS
 62
     7
 10
296.70553689656788
 20
40.191395748914211
 30
0.0
 40
190.4555459132047
 50
174.72212947518381
 51
185.26695433777039
  0
ARC
  5
125
  8
DATA
  6
CONTINUOUS
 62
     7
 10
110.0526470902701
 20
57.572212257047738
 30
0.0
 40
2.9999999999999538
 50
108.1577137180642
 51
174.69594122857691
  0
ARC
  5
126
  8
DATA
  6
CONTINUOUS
 62
     7
 10
125.4478979870125
 20
22.980181794662741
 30
0.0
 40
2.999999999999996
 50
288.15904438591372
 51
354.68158187267602
  0
ARC
  5
127
  8
DATA
  6
CONTINUOUS
 62
     7
 10
110.0414643227306
 20
22.983673535709531
 30
0.0
 40
2.9999999999999809
 50
185.2669543377707
 51
251.81498438335649
  0
LINE
  5
128
  8
DATA
  6
CONTINUOUS
 62
     7
 10
128.43498284772269
 20
57.850105479194838
 30
0.0
 11
128.44197289096019
 21
57.722639523268967
 31
0.0
  0
LINE
  5
129
  8
DATA
  6
CONTINUOUS
 62
     7
 10
107.0654926335107
 20
57.849535626893349
 30
0.0
 11
107.05746528319349
 21
57.710639523268981
 31
0.0
  0
LINE
  5
12A
  8
DATA
  6
CONTINUOUS
 62
     7
 10
110.9189373700415
 20
60.749999999718511
 30
0.0
 11
116.0249999997932
 21
60.749999999718511
 31
0.0
  0
LINE
  5
12B
  8
DATA
  6
CONTINUOUS
 62
     7
 10
119.4749999997932
 20
60.749999999718511
 30
0.0
 11
124.5810626295448
 21
60.749999999718511
 31
0.0
  0
ARC
  5
12C
  8
DATA
  6
CONTINUOUS
 62
     7
 10
110.9189373700415
 20
55.749999999718263
 30
0.0
 40
5.0000000000002549
 50
90.0
 51
107.5133416112358
  0
ARC
  5
12D
  8
DATA
  6
CONTINUOUS
 62
     7
 10
124.5810626295448
 20
55.749999999717012
 30
0.0
 40
5.0000000000015046
 50
72.486658388769087
 51
90.0
  0
LINE
  5
12E
  8
DATA
  6
CONTINUOUS
 62
     7
 10
116.0249999997932
 20
56.474999999718499
 30
0.0
 11
116.0249999997932
 21
60.749999999718511
 31
0.0
  0
LINE
  5
12F
  8
DATA
  6
CONTINUOUS
 62
     7
 10
119.4749999997932
 20
60.749999999718511
 30
0.0
 11
119.4749999997932
 21
56.474999999718499
 31
0.0
  0
ARC
  5
130
  8
DATA
  6
CONTINUOUS
 62
     7
 10
117.7499999997932
 20
56.474999999718499
 30
0.0
 40
1.725000000000001
 50
180.0
 51
0.0
  0
TEXT
  5
131
  8
DATA
 62
     7
 10
102.01578715200149
 20
-4.8434574875935441
 30
0.0
 40
4.072102864583333
  1
マウンテングプレート
 11
102.01578715200149
 21
-0.7713546230102111
 31
0.0
 73
     3
  0
CIRCLE
  5
132
  8
DATA
  6
CONTINUOUS
 62
     7
 10
117.7499999997934
 20
40.749999999718511
 30
0.0
 40
2.200000000000002
  0
CIRCLE
  5
133
  8
DATA
  6
CONTINUOUS
 62
     7
 10
117.7499999997934
 20
40.749999999718511
 30
0.0
 40
4.450000000000002
  0
POLYLINE
  5
134
  8
DATA
  6
CONTINUOUS
 62
     7
 66
     1
 10
0.0
 20
0.0
 30
0.0
 70
     1
  0
VERTEX
  5
215
  8
DATA
  6
CONTINUOUS
 62
     7
 10
126.2499999997934
 20
42.749999999718511
 30
0.0
  0
VERTEX
  5
216
  8
DATA
  6
CONTINUOUS
 62
     7
 10
128.2499999997934
 20
42.749999999718511
 30
0.0
  0
VERTEX
  5
217
  8
DATA
  6
CONTINUOUS
 62
     7
 10
128.2499999997934
 20
38.749999999718511
 30
0.0
  0
VERTEX
  5
218
  8
DATA
  6
CONTINUOUS
 62
     7
 10
126.2499999997934
 20
38.749999999718511
 30
0.0
  0
SEQEND
  5
219
  8
DATA
  6
CONTINUOUS
 62
     7
  0
POLYLINE
  5
13B
  8
DATA
  6
CONTINUOUS
 62
     7
 66
     1
 10
0.0
 20
0.0
 30
0.0
 70
     1
  0
VERTEX
  5
21A
  8
DATA
  6
CONTINUOUS
 62
     7
 10
107.2499999997934
 20
42.749999999718511
 30
0.0
  0
VERTEX
  5
21B
  8
DATA
  6
CONTINUOUS
 62
     7
 10
109.2499999997934
 20
42.749999999718511
 30
0.0
  0
VERTEX
  5
21C
  8
DATA
  6
CONTINUOUS
 62
     7
 10
109.2499999997934
 20
38.749999999718511
 30
0.0
  0
VERTEX
  5
21D
  8
DATA
  6
CONTINUOUS
 62
     7
 10
107.2499999997934
 20
38.749999999718511
 30
0.0
  0
SEQEND
  5
21E
  8
DATA
  6
CONTINUOUS
 62
     7
  0
CIRCLE
  5
142
  8
DATA
  6
CONTINUOUS
 62
     7
 10
122.2499999997934
 20
51.249999999718497
 30
0.0
 40
2.0
  0
CIRCLE
  5
143
  8
DATA
  6
CONTINUOUS
 62
     7
 10
113.2499999997934
 20
30.249999999718518
 30
0.0
 40
2.0
  0
CIRCLE
  5
144
  8
DATA
  6
CONTINUOUS
 62
     7
 10
113.2499999997934
 20
30.249999999718518
 30
0.0
 40
3.4999999999999978
  0
CIRCLE
  5
145
  8
DATA
  6
CONTINUOUS
 62
     7
 10
122.2499999997934
 20
51.249999999718497
 30
0.0
 40
3.5
  0
POLYLINE
  5
146
  8
DATA
  6
CONTINUOUS
 62
     7
 66
     1
 10
0.0
 20
0.0
 30
0.0
 70
     1
  0
VERTEX
  5
21F
  8
DATA
  6
CONTINUOUS
 62
     7
 10
108.693379237389
 20
46.900000000000013
 30
0.0
  0
VERTEX
  5
220
  8
DATA
  6
CONTINUOUS
 62
     7
 10
112.693379237389
 20
46.900000000000013
 30
0.0
  0
VERTEX
  5
221
  8
DATA
  6
CONTINUOUS
 62
     7
 10
112.693379237389
 20
43.299999999999997
 30
0.0
  0
VERTEX
  5
222
  8
DATA
  6
CONTINUOUS
 62
     7
 10
108.693379237389
 20
43.299999999999997
 30
0.0
  0
SEQEND
  5
223
  8
DATA
  6
CONTINUOUS
 62
     7
  0
POLYLINE
  5
14D
  8
DATA
  6
CONTINUOUS
 62
     7
 66
     1
 10
0.0
 20
0.0
 30
0.0
 70
     1
  0
VERTEX
  5
224
  8
DATA
  6
CONTINUOUS
 62
     7
 10
122.8066207621978
 20
46.900000000000013
 30
0.0
  0
VERTEX
  5
225
  8
DATA
  6
CONTINUOUS
 62
     7
 10
126.8066207621978
 20
46.900000000000013
 30
0.0
  0
VERTEX
  5
226
  8
DATA
  6
CONTINUOUS
 62
     7
 10
126.8066207621978
 20
43.299999999999997
 30
0.0
  0
VERTEX
  5
227
  8
DATA
  6
CONTINUOUS
 62
     7
 10
122.8066207621978
 20
43.299999999999997
 30
0.0
  0
SEQEND
  5
228
  8
DATA
  6
CONTINUOUS
 62
     7
  0
ARC
  5
154
  8
DATA
  6
CONTINUOUS
 62
     7
 10
117.74999963913611
 20
45.79290558066058
 30
0.0
 40
25.484000000000041
 50
251.8149843833566
 51
288.15904438591389
  0
ARC
  5
155
  8
DATA
  6
CONTINUOUS
 62
     7
 10
-45.841357654039662
 20
40.088905580660551
 30
0.0
 40
174.1713572931757
 50
354.68158187267568
 51
5.2955458307633307
  0
ARC
  5
156
  8
DATA
  6
CONTINUOUS
 62
     7
 10
282.38909358416879
 20
40.034989669920563
 30
0.0
 40
175.2191022401484
 50
174.72212947518381
 51
185.26695433777039
  0
ARC
  5
157
  8
DATA
  6
CONTINUOUS
 62
     7
 10
124.8320657873777
 20
24.2006728320092
 30
0.0
 40
2.7599999999999838
 50
288.15904438591389
 51
354.68158187267619
  0
ARC
  5
158
  8
DATA
  6
CONTINUOUS
 62
     7
 10
110.6581468162384
 20
24.203885233772251
 30
0.0
 40
2.7599999999999829
 50
185.26695433777081
 51
251.81498438335649
  0
LINE
  5
159
  8
DATA
  6
CONTINUOUS
 62
     7
 10
107.9128676998659
 20
56.152693942343639
 30
0.0
 11
108.34083873063641
 21
60.035890835898449
 31
0.0
  0
LINE
  5
15A
  8
DATA
  6
CONTINUOUS
 62
     7
 10
127.58713229972091
 20
56.152693942343639
 30
0.0
 11
127.1591612689505
 21
60.035890835898449
 31
0.0
  0
LINE
  5
15B
  8
DATA
  6
CONTINUOUS
 62
     7
 10
147.69999999999999
 20
60.749999999718511
 30
0.0
 11
150.55000000000001
 21
60.749999999718511
 31
0.0
  0
LINE
  5
15C
  8
DATA
  6
CONTINUOUS
 62
     7
 10
149.03999999999999
 20
18.749999999718579
 30
0.0
 11
150.55000000000001
 21
18.7499999997186
 31
0.0
  0
LINE
  5
15D
  8
DATA
  6
CONTINUOUS
 62
     7
 10
150.55000000000001
 20
60.749999999718511
 30
0.0
 11
150.55000000000001
 21
18.74999999971854
 31
0.0
  0
LINE
  5
15E
  8
DATA
  6
CONTINUOUS
 62
     7
 10
149.03999999999999
 20
60.749999999718511
 30
0.0
 11
149.03999999999999
 21
18.74999999971854
 31
0.0
  0
LINE
  5
15F
  8
DATA
  6
CONTINUOUS
 62
     7
 10
147.69999999999999
 20
60.749999999718511
 30
0.0
 11
147.69999999999999
 21
20.308905580660539
 31
0.0
  0
LINE
  5
160
  8
DATA
  6
CONTINUOUS
 62
     7
 10
143.75
 20
42.1999999997185
 30
0.0
 11
147.69999999999999
 21
42.749999999718511
 31
0.0
  0
LINE
  5
161
  8
DATA
  6
CONTINUOUS
 62
     7
 10
147.69999999999999
 20
38.749999999718511
 30
0.0
 11
143.75
 21
39.299999999718509
 31
0.0
  0
LINE
  5
162
  8
DATA
  6
CONTINUOUS
 62
     7
 10
143.75
 20
39.299999999718509
 30
0.0
 11
143.75
 21
42.1999999997185
 31
0.0
  0
LINE
  5
163
  8
DATA
  6
CONTINUOUS
 62
     7
 10
147.69999999999999
 20
20.308905580660539
 30
0.0
 11
149.03999999999999
 21
20.308905580660539
 31
0.0
  0
LINE
  5
164
  8
DATA
  6
CONTINUOUS
 62
     7
 10
69.749999999830749
 20
208.39920682257249
 30
0.0
 11
69.749999999830749
 21
198.06083824251209
 31
0.0
  0
TEXT
  5
165
  8
DATA
 62
     7
 10
108.8027788725221
 20
170.2989312665093
 30
0.0
 40
4.072102864583333
  1
プリアンプ部
 11
108.8027788725221
 21
174.37103413109261
 31
0.0
 73
     3
  0
LINE
  5
166
  8
DATA
  6
CONTINUOUS
 62
     7
 10
106.25
 20
168.75
 30
0.0
 11
143.75
 21
168.75
 31
0.0
  0
LINE
  5
167
  8
DATA
  6
CONTINUOUS
 62
     7
 10
100.0
 20
-6.25
 30
0.0
 11
156.25
 21
-6.25
 31
0.0
  0
LINE
  5
168
  8
DATA
  6
CONTINUOUS
 62
     7
 10
62.50000000004885
 20
18.749999999718511
 30
0.0
 11
62.50000000004885
 21
61.749999999718497
 31
0.0
  0
ARC
  5
169
  8
DATA
  6
CONTINUOUS
 62
     7
 10
62.725000000048823
 20
58.877215278218557
 30
0.0
 40
2.933641082341143
 50
94.398705354994988
 51
147.52880770915209
  0
LINE
  5
16A
  8
DATA
  6
CONTINUOUS
 62
     7
 10
62.50000000004885
 20
61.802215278218497
 30
0.0
 11
62.50000000004885
 21
66.280858931933366
 31
0.0
  0
LINE
  5
16B
  8
DATA
  6
CONTINUOUS
 62
     7
 10
60.100000000048823
 20
60.270673325088502
 30
0.0
 11
60.100000000048823
 21
66.280858931933366
 31
0.0
  0
LINE
  5
16C
  8
DATA
  6
CONTINUOUS
 62
     7
 10
50.0000000000488
 20
34.141999999718237
 30
0.0
 11
50.0000000000488
 21
34.449999999718543
 31
0.0
  0
ARC
  5
16D
  8
DATA
  6
CONTINUOUS
 62
     7
 10
69.775704067997168
 20
37.445985694845923
 30
0.0
 40
20.061798294190272
 50
190.09945987468211
 51
248.73607127130521
  0
ARC
  5
16E
  8
DATA
  6
CONTINUOUS
 62
     7
 10
90.668864625989471
 20
33.38551589891356
 30
0.0
 40
40.68279336972757
 50
138.39225680974809
 51
178.50065831874329
  0
ARC
  5
16F
  8
DATA
  6
CONTINUOUS
 62
     7
 10
55.151478711601641
 20
34.629758709586099
 30
0.0
 40
5.1745184775623123
 50
185.4088254430871
 51
187.79436698682471
  0
ENDSEC
  0
EOF
